webmaster
 
Cevapla
16-12-2011 00:48:04
 

Joan Osbourne - One Of Us(TAB) Gitar Akoru

Solo:
D E
E|-2-----------------------------------------------------------------|
B|-3-------2-------2-----------2---2---2---2---2---2&---------2p0---|
G|-2-----------------------------------------------------------------|
D|-0-----------------------0-----------------------------------------|
Rome...

D E
E|---------------------------------------------------------7----&9---|
B|-2-----------2-----------2-------7---7---9---9---10--10------------|
G|-------------------------------------------------------------------|
D|-----0---2-------0---4-------0-------------------------------------|

F#m D A E
E|-9---9---9---9-9-9p7-7---7-----------------------------------------|
B|-----------------------------10-10-10p9-9-9-9p7-7---7--------------|
G|--------------------------------------------------9---9--6---------|
D|-------------------------------------------------------------9-----|

F#m D A E
E|-9---9-9-9p7-----7b9(10)-(10)--------------------------------------|
B|-------------10--------------10-10-10--10-10-10p9-9---9p7-7---7---|


Obs: no Refrão, tem um arranjo bem legal, tocando a Introdução de fundo,
seguindo os acordes listados.

F#m D A E
If God had a name, what would it be? And would you
F#m D A E
call it to His face, if you were faced with Him in
F#m D A E
all His glory? What would you ask if you had
F#m D A E
just one question? An'
D D5add9 E Esus E
Yeah..., yeah..., God is... great.
D D5add9 E E6 E
Yeah..., yeah..., God is... good.
D D5add9 E Esus E
Yeah..., yeah..., yeah, yeah, yeah... What if

Refrão 1:
F#m D A E
God was one of us? Just a
F#m D A E
slob like one of us? Just a
F#m D A E
stran - ger on the bus, trying to make his way...
F#m D A E
home... If

F#m D A E
If God had a face, what would it look like and would
F#m D A E
you want to see, if seeing meant that you would
F#m D A E
have to believe... in things like Hea-ven, and in
F#m D A E
Jesus and the saints, and all the prophets? An'
D D5add9 E E6 E
Yeah..., yeah..., God is... great.
D D5add9 E E6 E
Yeah..., yeah..., God is... good.
D D5add9 E Esus E
Yeah..., yeah..., yeah, yeah, yeah... What if

Refrão 2:
F#m D A E
God was one of us? Just a
F#m D A E
slob like one of us? Just a
F#m D A E
stran - ger on the bus? Trying to make his way...
F#m D A E
home... Trying to make his way...
F#m D A E
home... Back up to Heaven all a-
F#m D A E
lone. No-bod-y calling on the
F#m D A E
phone..., 'cept for the Pope, maybe, in

Solo:
D E
E|-2-----------------------------------------------------------------|
B|-3-------2-------2-----------2---2---2---2---2---2&---------2p0---|
G|-2-----------------------------------------------------------------|
D|-0-----------------------0-----------------------------------------|
Rome...

D E
E|---------------------------------------------------------7----&9---|
B|-2-----------2-----------2-------7---7---9---9---10--10------------|
G|-------------------------------------------------------------------|
D|-----0---2-------0---4-------0-------------------------------------|

F#m D A E
E|-9---9---9---9-9-9p7-7---7-----------------------------------------|
B|-----------------------------10-10-10p9-9-9-9p7-7---7--------------|
G|--------------------------------------------------9---9--6---------|
D|-------------------------------------------------------------9-----|

F#m D A E
E|-9---9-9-9p7-----7b9(10)-(10)--------------------------------------|
B|-------------10--------------10-10-10--10-10-10p99---9p7-7---7----|

D D5add9 E Esus E
Yeah..., yeah..., God is... great.
D D5add9 E E6 E
Yeah..., yeah..., God is... good.
D D5add9 E Esus E
Yeah..., yeah..., yeah, yeah, yeah, What if

Refrão:
F#m D A E
God was one of us? Just a
F#m D A E
slob like one of us? Just a
F#m D A E
stran - ger on the bus? Trying to make his way...
F#m D A E
home... Like a holy rolling
F#m D A E
stone... Back up to Heaven all a-
F#m D A E
lone. Just trying to make his way...
D5add9
home...
Nobody calling on the phone..., 'cept for the Pope, maybe, in Rome...

Bir önceki yazı Joan Osbourne - One Of Us Gitar Akoru hakkında bilgi vermektedir.

Cevapla

"Joan Osbourne - One Of Us(TAB) Gitar Akoru" konusu hakkında etiketler
akor akorlari gitar one sozleri tab

Joan Osbourne - One Of Us Gitar Akoru Önceki | Sonraki Cem Adrian - Bana Özel Gitar Akoru




Saat: 09:14 - Webmaster Forumu - Rss - Arşiv
İletişim Bilgileri, Contact Us, Kullanım Sözleşmesi, Gizlilik